quarta-feira, 28 de março de 2007

AULA 5 -EXERCICIOS COM TABLATURAS


PARA TREINAR:

Temos logo abaixo uma música muito tradicional "Parabéns", onde os dedos da mão esquerda serão Indicador para casa 5 e anular para casa 7.

Trecho de "Parabéns"


e:----------------------------------------------------------
B:----------------------------------------------------------
G:----------------------------------------------------------
D:---------5-4----------7-5------9-5-5-5-4-2--10-10-9-5-7-5-
A:-5-5-7-5------5-5-7-5------5-5----------------------------
E:----------------------------------------------------------

Este exemplo mostra notas tocadas uma a cada tempo.


Tente executar estes outros exemplos:

Trecho de "Take a brath away" (Trilha sonora de Ases Indomáveis)


e:----------------------------------------------------------------
B:----------------------------------------------------------------
G:----------------------------------------------------------------
D:--------0--2--0-------0-----------------------------------0--2--
A:--0--2-------------0-----4----0--4--2-------2--4----0--2--------
E:-----------------------------------------2----------------------

Trecho de "Jingle Bells" (Música Natalina)


e:--------------------------------------------------------------
B:----------------------------------------3-3-3-33-5-3-------3--
G:-----4-2-0-----------4-2-0--------5-4-2--------------5-2-0----
D:---0-------0----00-0-------2----2-----------------------------
A:--------------------------------------------------------------
E:--------------------------------------------------------------



Observe agora alguns exemplos onde teremos duas notas ou mais tocadas de uma só vez no mesmo tempo.


Trecho de "Asa Branca"


e:-------------0---0-------------------------0----0----------
B:------0---2---------2--3---3-------0---2------------3---2--
G:--2----------------------------2---------------------------
D:-----------------------0-----------------------------------
A:----------0----------------------------0----------------0--
E:------------------------------------------------0----------


= Duas notas tocadas no mesmo tempo

Trecho de "Carruagens de fogo" (Tema das olimpíadas)


e:--------0--2--0--------------0--2--0-----------------------
B:-----3------------2-------3--------------------------------
G:--2--------------------2-----------------------------------
D:-----0--------------------0--------------------------------
A:--------------0--------------------0-----------------------
E:-----------------------------------------------------------


No trecho abaixo encontraremos 3 notas tocadas ao mesmo tempo

Trecho de "Eu sei que vou te amar"
e:---------------------------------------------------------
B:-----0--0--0--0--0----------0--1--0-----1--1--1--1--1----
G:--0--0-------------------2-----------2--2----------------
D:----------------------1-----------------0----------------
A:-----3---------------------------------------------------
E:---------------------------------------------------------


Temos que levar em conta um conhecimento prévio das musicas para que a tablatura possa realmente nos mostrar trechos corretos. Estando familiarizado você tem uma noção do ritmo e do tempo que é executada cada nota.

8 comentários:

Kiko loureiro disse...

E ta massa. mas o felipe tem razão você tem que explicar tudo fora isso ta muito bom, abraços

joana disse...

Vim dar a este site numa pesquisa na net..estou a aprender a tocar guitarra clássica (ja tinha começado a uns anos ms nunca aprendi realmente) como autodidata.. Comecei pela música "come as you are" d nirvana mas agora qeria tentar otras musicas..espero q estes trechos me ajudem..obrigada!

Anônimo disse...

Jerfeson Muito bom mais o que é as letras ao lado dos numeros nas cordas

Caio disse...

gostaría de saber como toca uma nota dupla pq aqui naum explica
mas o site ta ótimo!!!!!
:)

Caio disse...
Este comentário foi removido pelo autor.
Gabriel Ceccon disse...

Agora sim ta melhorando mais quero saber os signifikado das letras....

Anônimo disse...

muito legal!!! eu tenho 9 anos e sei tocar guitarra! isso também fora as aulas que tenho vai me ajudar muito!!!

QUEM FEZ ESSE SITE EU AGRADEÇO MUITO!!!!

Anônimo disse...

o site ta otimo!!! Para tocar duas ou três notas ao mesmo tempo e interecante fazer como se estivesse fazendo um de dilhado com puxada!!!