quinta-feira, 7 de abril de 2011

Curso de Guitarra Brasil On-line - Pequeno Estudo Básico sobre Escalas

Escalas:

 - Pentatônica
 - Maior
 - Menor
 - Harmônica
 - Melódica

Escala é uma sucessão de sons que se distribuem em tons e semitons. É muito importante o estudo das escalas, pois ele contribui para o desenvolvimento auditivo, o desenvolvimento mecânico das mãos e a compreensão das posições das notas em todo o braço. Devemos ter em mente que toda melodia está baseada sempre em algum tipo de escala.
Introdução à Pentatônica

O que é Pentatônica?
- Pentatônica é o nome de uma escala formada por cinco notas, original do blues que, por ser formada de cinco notas leva esse nome.

Para que é usada? Por que estuda-la?
- É usada na criação de solos e riffs nos mais diversos campos do rock, desde o blues até o metal. É interessante você estudar a escala pentatônica pois ela é muito usado hoje em dia, compreendendo essa escala você saberá de onde famosos guitarristas criam os solos e poderá criar seus próprios solos e licks.

Iniciação

    Vamos começar a chamar as escalas pentatônicas de "pentas", pois é um termo abreviado e bastante usado, bem para começarmos é necessário saber que existem penta menor e penta maior, porém a mais conhecida e praticada é a menor. Isso já é o necessário para que você comece a estudar a escala pentatônica, é importante salientar que para que esse estudo comece o ideal é o praticante já ter alguma iniciação no instrumento.

Pentatônica Menor

 Escalas Pentatônicas Menores
Formação das Pentatônicas Menores:
Tonica, 3ªm, 4ªjusta, 5ª e 7ªm.

Vejamos o exemplo da Penta Menor de A(lá):
Tonica: A(lá)
3ªm: C(dó)
4ªjusta: D(ré)
5ª: E(mí)
7ªm: G(sol)

Ficando no braço do instrumento da seguinte forma:
e--------------------------5-8-
B---------------------5-8------
G----------------5-7-----------
D-----------5-7----------------
A------5-7---------------------
E-5-8--------------------------
  A C D E  G A C D  E G A C
OBS: Repare que as notas se repetem até acabar as cordas.

Para achar a penta de outra nota basta repetir o processo.
Vejamos o exemplo da pentatônica de E{mí):
Tonica: E(mí)
3ªm: G(sol)
4ªjusta: A(lá)
5ª: B(sí)
7ªm: D(ré)

Ficando no braço do instrumento da seguinte forma:
e--------------------------0-3-
B---------------------0-2------
G----------------0-2-----------
D-----------0-2----------------
A------0-2---------------------
E-0-3--------------------------
  E G  A B D E G A B D  E G
OBS: Repare que, novamente, as notas se repetem até acabar as cordas.


Pentatônica Maior

As pentatônicas maiores nada mais são do que as pentas menores um tom e meio mais graves, vejamos o exemplo da penta maior de A(lá):
e--------------------------2-5-
B---------------------2-5------
G----------------2-4-----------
D-----------2-4----------------
A------2-4---------------------
E-2-5--------------------------
 F# A B C# E F# A B C# E F# A

Neste caso muda a formação:
Tonica: A(lá)
6ªM: F#(fá sustenido)
2ªM: B (sí)
3ªM: C# (dó sustenido)
5ª: E (mí)


Desenhos da Pentatônica

Mas a pentatônica não retém-se apenas a 1 desenho no braço do instrumento, você pode obter ainda mais quatro formações da mesma penta, basta alterar a sequência das notas de sua formação, vamos tomar por exemplo novamente a pentatônica de Am(lá), cuja a formação é A(lá), C(dó), D(ré), E(mí), G(sol). Para obter o segundo desenho basta alterar a sequência das notas, dessa maneira: C(dó), D(ré), E(mí), G(sol), A(lá), fazendo isso você alterá a posição da escala, porém, continuará exercendo a escala de  Lá ,só que em outro desenho, vejamos no braço do instrumento:
Obs: Para tirar outros desenhos da Penta Maior faça da mesma forma!

Segundo desenho Penta Menor de A(lá)
e------------------------------8-10-
B------------------------8-10-------
G-------------------7-9-------------
D-------------7-10------------------
A-------7-10------------------------
E-8-10------------------------------
  C D   E G   A C   D E G A   C D
repare que onde começa o segundo desenho é exatamente onde acaba o primeiro.

Para obter o 3º, 4º e 5º desenhos basta continuar alterando a formação das notas, vejamos:
OBS: Repare que em todos eles onde acaba um começa o outro.

Terceiro desenho Penta Menor de A(lá)D(ré), E(mí), G(sol), A(lá) e C(dó)
e-----------------------------------10-12-
B----------------------------10-13--------
G----------------------9-12---------------
D---------------10-12---------------------
A--------10-12----------------------------
E-10-12-----------------------------------

 Quarto desenho Penta Menor de A(lá)
E(mí), G(sol), A(lá) e C(dó) e D(ré)
e------------------------------------12-15-
B-----------------------------13-15--------
G----------------------12-14---------------
D---------------12-14----------------------
A--------12-15-----------------------------
E-12-15------------------------------------

 Quinto desenho Penta Menor de A(lá)
G(sol), A(lál), C(dó), D(ré) e E(mí)
e------------------------------------15-17-
B-----------------------------15-17--------
G----------------------14-17---------------
D---------------14-17----------------------
A--------15-17-----------------------------
E-15-17------------------------------------

Escala Maior
Maior natural de A

E-----------------------------------4-5-7--
B------------------------------5-7---------
G-----------------------4-6-7--------------
D----------------4-6-7---------------------
A---------4-5-7----------------------------
E--4-5-7-----------------------------------

Fórmula da escala: Tônica, 2ªM, 3ªM, 4ªJ, 5ªJ, 6ªM e 7ªM

Escala Menor
Menor Natural de A(lá):
E------------------------------------------5-7-8--
B----------------------------------5-6-8----------
G--------------------------5-7-9------------------
D------------------5-7-9--------------------------
A----------5-7-8----------------------------------
E--5-7-8------------------------------------------

Fórmula da Escala: Tônica, 2ªM, 3ªm, 4ªJ, 5ªJ, 6ªm e 7ªm

Escala Menor harmônica
Menor Harmônica de A(lá):

E------------------------------------------5-7-8--
B----------------------------------5-6-9----------
G--------------------------5-7-9------------------
D------------------6-7-9--------------------------
A----------5-7-8----------------------------------
E--5-7-8------------------------------------------

Fórmula da Escala: Tônica, 2ª, 3ªm, 4ªJ, 5ªJ, 6ªm e 7ªM

Escala Menor Melódica
Menor Melódica de A(lá):
E------------------------------------------5-7-8--
B----------------------------------5-7-9----------
G--------------------------5-7-9------------------
D------------------6-7-9--------------------------
A----------5-7-9----------------------------------
E--5-7-8------------------------------------------

Fórmula da Escala: Tônica, 2ªM, 3ªm, 4ªJ, 5ªJ, 6ªM e 7ªM

Nenhum comentário: